Blink 182 - Anthem (var.84) Notas de guitarra (tab) descargar gratis o reproducir online

Notas de guitarra (tab) para Anthem (var.84) de Blink 182 descargar gratis, leer o reproducir online. Info de archivo: .txt, 4.59 kb, 689 visualizaciones y 0 descargas.

Descargar notas de guitarra (tab) "Anthem (var.84)" (Blink 182)

Blink 182 Nombre de grupo
Anthem Nombre de canción
Notas de guitarra (tabs) Tipo de nota
4.59 kb Tamaño de archivo
.TXT Tipo de archivo
689 visualizaciones
0 descargas
 
Eres un robot?

Anthem (var.84) notas de guitarra (tab) leer y reproducir online

                    Anthem II                                            
Blink-182                               Legend
Tuning-standard                      ... = Palm Mute
                                       h = Hammer on                   
                                   ]---} = Let note ring
                                        = Slide down
Intro Pt.1                           
|----------------------------------------------------------------------|
|-8---8---6---6---5---5---6---6---8---8---6---6---5---5---6---6--------|
|---5---5---5---5---5---5---5---5---5---5---5---5---5---5---5---5------|
|----------------------------------------------------------------------|
|----------------------------------------------------------------------|
|----------------------------------------------------------------------|

|----------------------------------------------------------------------|
|-8---8---6---6---5---5---6---6---8---8---6---6---5---5---6---6--------|
|---5---5---5---5---5---5---5---5---5---5---5---5---5---5---5---5------|
|----------------------------------------------------------------------|
|----------------------------------------------------------------------|
|----------------------------------------------------------------------|
Intro Pt.2
|--------------------------------------------------------Play-3-Times--|
|----------------------------------------------------------------------|
|----------------------------------------------------------------------|
|-----0h3-2-------0h3-2------0h3-2-------0-----0-----------------------|
|-3-3---------3-3--------3-3---------3-3---3-3---3-3-------------------|
|----------------------------------------------------------------------|
  . .         . .        . .         . .   . .   . .
|--------------------------------------------------------Play-3-Times--|
|----------------------------------------------------------------------|
|----------------------------------------------------------------------|
|-----0h3-2-------0h3-2------0h3-2-------0-----0-----------------------|
|-3-3---------3-3--------3-3---------3-3---3-3---3-3-------------------|
|----------------------------------------------------------------------|
  . .         . .        . .         . .   . .   . .
INTRO Pt.3
|Play-3-Times|
|------------|
|-9-10-9-5-7-|
|-x--x-x-x-x-|
|-7--8-7-3-5-|
|------------| then (after the third time)
                Fill
|-------------|----------------|
|-------------|----------------|
|999995---55-|5---------------|
|xxxxxx---xx-|x---------------|
|777773---33-|3---------------|
|-------------|----------------|
               ]---------------------------}
VERSE
Wait until beginning of 3rd line that Tom sings
|---------------------------|
|---------------------------|
|-5555----------------------|
|-5555----------------------| 
|-3333----------------------|
|---------------------------|and right into: Verse 2

VERSE 2
|----------------------------------------------------------------|
|----------------------------------------------------------------|
|-5-5-5-5-5-5-5-5-5-5-5-5-5-5-5-5--------------------------------|
|-5-5-5-5-5-5-5-5-5-5-5-5-5-5-5-5-7-7-7-7-7-7-7-7-3-3-3-3-3-3-3-3|
|-3-3-3-3-3-3-3-3-3-3-3-3-3-3-3-3-7-7-7-7-7-7-7-7-3-3-3-3-3-3-3-3|
|---------------------------------5-5-5-5-5-5-5-5-1-1-1-1-1-1-1-1|
  . . . . . . . . . . . . . . . . . . . . . . . . . . . . . . . .
INTERLUDE
(actually bass, but guitar can play it)
|----------------------------------------|
|----------------------------------------|
|----------------------------------------|
|----------------------------------------|
|---7-----5-----3------------------------|
|-5---5-3---3-1--------------------------|

CHORUS
|-------------------------play 3 times (on third time palm mute)-|
|----------------------------------------------------------------|     
|---------------------------------5-5-5-5-5-5-5-5----------------|
|-2-2-2-2-2-2-2-2-3-3-3-3-3-3-3-3-5-5-5-5-5-5-5-5-5-5-5-5-5-5-5-5|
|-2-2-2-2-2-2-2-2-3-3-3-3-3-3-3-3-3-3-3-3-3-3-3-3-5-5-5-5-5-5-5-5|
|-0-0-0-0-0-0-0-0-1-1-1-1-1-1-1-1-----------------3-3-3-3-3-3-3-3|

Order To Play:
Intro Pt.1  x1          
Intro Pt.2  x1                      
Intro Pt.3  x1                       
Fill        x1
Verse       x1
Verse 2     x2
Interlude   x1
Fill        x1
Verse       x1
Verse 2     x2
Interlude   x1
Chorus      x1
Intro 3     x1
Fill        x1
Verse       x1
Verse 2     x2
Interlude   x1
Chorus      x1
Fill        x1
Pause for Bass(Guitar plays Fill By the third line tom sings)
Chorus      x1
Intro 2     x1

Visit www.directTABS.com for more free tablature!                    

Comentarios para notas de guitarra (tab) — Anthem (var.84) (Blink 182)

Otras notas para Anthem (var.84) de Blink 182:

Las últimas notas vistas de Blink 182: