Blink 182 - Anthem (var.29) Notas de bajo guitarra (tab) descargar gratis o reproducir online

Notas de bajo guitarra (tab) para Anthem (var.29) de Blink 182 descargar gratis, leer o reproducir online. Info de archivo: .txt, 15.42 kb, 902 visualizaciones y 0 descargas.

Descargar notas de bajo guitarra (tab) "Anthem (var.29)" (Blink 182)

Blink 182 Nombre de grupo
Anthem Nombre de canción
Notas de bajo guitarra (tabs) Tipo de nota
15.42 kb Tamaño de archivo
.TXT Tipo de archivo
902 visualizaciones
0 descargas
 
Eres un robot?

Anthem (var.29) notas de bajo guitarra (tab) leer y reproducir online

                    *****************************
* Blink 182 - Anthem Prt.II *
*****************************

Intro Prt.3
|---||-----------------|-----------------|-----------------|-----------------|
|-4-||-----------------|-----------------|-----------------|-----------------|
|-4-||-3-3-3-3---------|-----------------|-----------------|-----------------|
|---||-----------------|-----------------|-----------------|-----------------|

|---||-----------------|-----------------|-----------------|-----------------|
|-4-||-----------------|-----------------|-----------------|-----------------|
|-4-||-3-3-3-3---------|-----------------|-----------------|-----------------|
|---||-----------------|-----------------|-----------------|-----------------|

|---||-----------------|-----------------|-----------------|-----------------|
|-4-||-----------------|-----------------|-----------------|-----------------|
|-4-||-3-3-3-3-------5-|-5-5-5-5-5-5-5-5-|-0-0-0-0-0-0-0-0-|-8-8-8-8-8-8-8-8-|
|---||-----------------|-----------------|-----------------|-----------------|

|---||-----------------|-----------------|-----------------|-----------------|
|-4-||-----------------|-----------------|-----------------|-----------------|
|-4-||-3-3-3-3-3-3-3-3-|-5-5-5-5-5-5-5-5-|-0-0-0-0-0-0-0-0-|-8-8-8-8-8-8-8-8-|
|---||-----------------|-----------------|-----------------|-----------------|

|---||-----------------|-----------------|-----------------|-----------------|
|-4-||-----------------|-----------------|-----------------|-----------------|
|-4-||-3-3-3-3-3-3-3-3-|-5-5-5-5-5-5-5-5-|-0-0-0-0-0-0-0-0-|-8-8-8-8-8-8-8-8-|
|---||-----------------|-----------------|-----------------|-----------------|

Intro Prt.2
|---||-----------------|-----------------|-----------------|-----------------|
|-4-||-----------------|-----------------|-----------------|-----------------|
|-4-||-3-3-3-3-3-3-3-3-|-5-5-5-5-5-5-5-5-|-0-0-0-0-0-0-0-0-|-8-8-8-8-8-8-8-8-|
|---||-----------------|-----------------|-----------------|-----------------|

|---||-----------------|-----------------|-----------------|-----------------|
|-4-||-----------------|-----------------|-----------------|-----------------|
|-4-||-3-3-3-3-3-3-3-3-|-5-5-5-5-5-5-5-5-|-0-0-0-0-0-0-0-0-|-8-8-8-8-8-8-8-8-|
|---||-----------------|-----------------|-----------------|-----------------|

|---||-----------------|-----------------|-----------------|-----------------|
|-4-||-----------------|-----------------|-----------------|-----------------|

|-4-||-3-3-3-3-3-3-3-3-|-5-5-5-5-5-5-5-5-|-0-0-0-0-0-0-0-0-|-8-8-8-8-8-8-8-8-|
|---||-----------------|-----------------|-----------------|-----------------|

|---||-----------------|-----------------|-----------------|--------|--------|
|-4-||-----------------|-----------------|-----------------|--------|--------|
|-4-||-3-3-3-3-3-3-3-3-|-5-5-5-5-5-5-5-5-|-0-0-0-0-0-0-0-0-|-3-3-3-3|3-3-3-3-|
|---||-----------------|-----------------|-----------------|--------|--------|

Intro Prt.3
|---||-----------------|-----------------|-----------------|-----------------|
|-4-||-----------------|-----------------|-----------------|-----------------|
|-4-||-3---3-3-3-3-3-3-|-3-3-3-3-3-3-3-3-|-0---0-0-0-0-----|-----------------|
|---||-----------------|-----------------|-------------1---|---1-1-1-1-1-1-1-|

|---||-----------------|-----------------|-----------------|-----------------|
|-4-||-----------------|-----------------|-----------------|-----------------|
|-4-||-3---3-3-3-3-3-3-|-3-3-3-3-3-3-3-3-|-0-0-0-0-0-0-----|-----------------|
|---||-----------------|-----------------|-------------1---|-----------------|

Verse Prt.1
|---||-----------------|-----------------|-----------------|-----------------|
|-4-||-----------------|-----------------|-----------------|-----------------|
|-4-||-3-3-3-333-3-3-3-|-3-3-3-333-3-3-3-|-0-0-0-000-0-0-0-|-----------------|
|---||-----------------|-----------------|-----------------|-1-1-1-111-1-1-1-|

|---||-----------------|-----------------|-----------------|-----------------|
|-4-||-----------------|-----------------|-----------------|-----------------|
|-4-||-3-3-3-333-3-3-3-|-3-3-3-333-3-3-3-|-0-0-0-000-0-0-0-|-8-8-8-888-8-8-8-|
|---||-----------------|-----------------|-----------------|-----------------|

|---||-----------------|-----------------|-----------------|-----------------|
|-4-||-----------------|-----------------|-----------------|-----------------|
|-4-||-3-3-3-333-3-3-3-|-3-3-3-333-3-3-3-|-0-0-0-000-0-0-0-|-----------------|
|---||-----------------|-----------------|-----------------|-1-1-1-111-1-1-1-|

|---||-----------------|-----------------|-----------------|-----------------|
|-4-||-----------------|-----------------|-----------------|-----------------|
|-4-||-3-3-3-333-3-3-3-|-3-3-3-333-3-3-3-|-0-0-0-000-0-0-0-|-8-8-8-888-8-8-8-|
|---||-----------------|-----------------|-----------------|-----------------|

Verse Prt.2
|---||-------9---------|-------7---------|-------5---------|-----------------|
|-4-||-7---------7-----|-5---------5-----|-3---------------|-----------------|
|-4-||-----------------|-----------------|-----------------|-----------------|
|---||-----------------|-----------------|-----------------|-----------------|

Verse Prt.1
|---||-----------------|-----------------|-----------------|-----------------|
|-4-||-----------------|-----------------|-----------------|-----------------|
|-4-||-3-3-3-333-3-3-3-|-3-3-3-333-3-3-3-|-0-0-0-000-0-0-0-|-----------------|
|---||-----------------|-----------------|-----------------|-1-1-1-111-1-1-1-|

|---||-----------------|-----------------|-----------------|-----------------|
|-4-||-----------------|-----------------|-----------------|-----------------|
|-4-||-3-3-3-333-3-3-3-|-3-3-3-333-3-3-3-|-0-0-0-000-0-0-0-|-8-8-8-888-8-8-8-|
|---||-----------------|-----------------|-----------------|-----------------|

|---||-----------------|-----------------|-----------------|-----------------|
|-4-||-----------------|-----------------|-----------------|-----------------|
|-4-||-3-3-3-333-3-3-3-|-3-3-3-333-3-3-3-|-0-0-0-000-0-0-0-|-----------------|
|---||-----------------|-----------------|-----------------|-1-1-1-111-1-1-1-|

|---||-----------------|-----------------|-----------------|-----------------|
|-4-||-----------------|-----------------|-----------------|-----------------|
|-4-||-3-3-3-333-3-3-3-|-3-3-3-333-3-3-3-|-0-0-0-000-0-0-0-|-8-8-8-888-8-8-8-|
|---||-----------------|-----------------|-----------------|-----------------|

Verse Prt.2
|---||-------9---------|-------7---------|-------5---------|-----------------|
|-4-||-7---------7-----|-5---------5-----|-3---------------|-----------------|
|-4-||-----------------|-----------------|-----------------|-----------------|
|---||-----------------|-----------------|-----------------|-----------------|

Bridge Prt.1
|---||-----------------|-----------------|-----------------|-----------------|
|-4-||-----------------|-----------------|-----------------|-----------------|
|-4-||-----------------|-----------------|-3---3-3-3-3-3-3-|-----------------|
|---||-0---0-0-0---0-0-|-1-1-1-1-1-1-1-1-|-----------------|-3---3-3-3-3-3-3-|

|---||-----------------|-----------------|-----------------|-----------------|
|-4-||-----------------|-----------------|-----------------|-----------------|
|-4-||-----------------|-----------------|-3---3-3-3-3-3-3-|-----------------|
|---||-0---0-0-0---0-0-|-1-1-1-1-1-1-1-1-|-----------------|-3---3-3-3-3-3-3-|

Bridge Prt.2
|---||-----------------------|-----------------------|-----------------------|
|-3-||-----------------------|-----------------------|-----------------------|
|-4-||-0--0--0--0--0--0--0--0|-----------------------|-3--3--3--3--3--3--3--3|
|---||-----------------------|-1--1--1--1--1--1--1--1|-----------------------|

|---||-----------------------|-----------------------|-----------------------|
|-3-||-----------------------|-----------------------|-----------------------|
|-4-||-----------------------|-0--0--0--0--0--0--0--0|-----------------------|
|---||-3--3--3--3--3--3--3--3|-----------------------|-1---------------------|

Intro Prt.3
|---||-----------------|-----------------|-----------------|-----------------|
|-4-||-----------------|-----------------|-----------------|-----------------|
|-4-||-3---3-3-3-3-3-3-|-3-3-3-3-3-3-3-3-|-0---0-0-0-0-----|-----------------|
|---||-----------------|-----------------|-------------1---|---1-1-1-1-1-1-1-|

|---||-----------------|-----------------|-----------------|-----------------|
|-4-||-----------------|-----------------|-----------------|-----------------|
|-4-||-3---3-3-3-3-3-3-|-3-3-3-3-3-3-3-3-|-0-0-0-0-0-0-----|-----------------|
|---||-----------------|-----------------|-------------1---|-----------------|

Verse Prt.1
|---||-----------------|-----------------|-----------------|-----------------|
|-4-||-----------------|-----------------|-----------------|-----------------|
|-4-||-3-3-3-333-3-3-3-|-3-3-3-333-3-3-3-|-0-0-0-000-0-0-0-|-----------------|
|---||-----------------|-----------------|-----------------|-1-1-1-111-1-1-1-|

|---||-----------------|-----------------|-----------------|-----------------|
|-4-||-----------------|-----------------|-----------------|-----------------|
|-4-||-3-3-3-333-3-3-3-|-3-3-3-333-3-3-3-|-0-0-0-000-0-0-0-|-8-8-8-888-8-8-8-|
|---||-----------------|-----------------|-----------------|-----------------|

|---||-----------------|-----------------|-----------------|-----------------|
|-4-||-----------------|-----------------|-----------------|-----------------|
|-4-||-3-3-3-333-3-3-3-|-3-3-3-333-3-3-3-|-0-0-0-000-0-0-0-|-----------------|
|---||-----------------|-----------------|-----------------|-1-1-1-111-1-1-1-|

|---||-----------------|-----------------|-----------------|-----------------|
|-4-||-----------------|-----------------|-----------------|-----------------|
|-4-||-3-3-3-333-3-3-3-|-3-3-3-333-3-3-3-|-0-0-0-000-0-0-0-|-8-8-8-888-8-8-8-|
|---||-----------------|-----------------|-----------------|-----------------|

Verse Prt.2
|---||-------9---------|-------7---------|-------5---------|-----------------|
|-4-||-7---------7-----|-5---------5-----|-3---------------|-----------------|
|-4-||-----------------|-----------------|-----------------|-----------------|
|---||-----------------|-----------------|-----------------|-----------------|

Bridge Prt.1
|---||-----------------|-----------------|-----------------|-----------------|
|-4-||-----------------|-----------------|-----------------|-----------------|
|-4-||-----------------|-----------------|-3---3-3-3-3-3-3-|-----------------|
|---||-0---0-0-0---0-0-|-1-1-1-1-1-1-1-1-|-----------------|-3---3-3-3-3-3-3-|

|---||-----------------|-----------------|-----------------|-----------------|
|-4-||-----------------|-----------------|-----------------|-----------------|
|-4-||-----------------|-----------------|-3---3-3-3-3-3-3-|-----------------|
|---||-0---0-0-0---0-0-|-1-1-1-1-1-1-1-1-|-----------------|-3---3-3-3-3-3-3-|

Bridge Prt.2
|---||-----------------------|-----------------------|-----------------------|
|-3-||-----------------------|-----------------------|-----------------------|
|-4-||-0--0--0--0--0--0--0--0|-----------------------|-3--3--3--3--3--3--3--3|
|---||-----------------------|-1--1--1--1--1--1--1--1|-----------------------|

|---||-----------------------|-----------------------|-----------------------|
|-3-||-----------------------|-----------------------|-----------------------|
|-4-||-----------------------|-0--0--0--0--0--0--0--0|-----------------------|
|---||-3--3--3--3--3--3--3--3|-----------------------|-1---------------------|

Interlude Prt.1
|---||-----------------|-----------------|-----------------|-----------------|
|-4-||-----------------|-----------------|-----------------|-----------------|
|-4-||--3---3---3---3--|-3---3-3-3-3-3-3-|-0---0-0-0-0-0-0-|-----------------|
|---||-----------------|-----------------|-----------------|-1---1-1-1-1-1-1-|

|---||-----------------|-----------------|-----------------|-----------------|
|-4-||-----------------|-----------------|-----------------|-----------------|
|-4-||-3---3-3-3-3-3-3-|-3---3-3-3-3-3-3-|-0---0-0-0-0-0-0-|-----------------|
|---||-----------------|-----------------|-----------------|-1---1-1-1-1-1-1-|

|---||-----------------|-----------------|-----------------|-----------------|
|-4-||-----------------|-----------------|-----------------|-----------------|
|-4-||-3---3-3-3-3-3-3-|-3---3-3-3-3-3-3-|-0---0-0-0-0-0-0-|-----------------|
|---||-----------------|-----------------|-----------------|-1---1-1-1-1-1-1-|

|---||-----------------|-----------------|-----------------|-----------------|
|-4-||-----------------|-----------------|-----------------|-----------------|
|-4-||-3---3-3-3-3-3-3-|-3---3-3-3-3-3-3-|-0---0-0-0-0-0-0-|-8---8-8-8-8-8-8-|
|---||-----------------|-----------------|-----------------|-----------------|

Interlude Prt.2
|---||-17------17------|-17------17------|-17------17------|-17------17------|
|-4-||-----17------17--|-----17------17--|-----17------17--|-----17------17--|
|-4-||-----------------|-----------------|-----------------|-----------------|
|---||-----------------|-----------------|-----------------|-----------------|

|---||-17------17------|-17------17------|-17------17------|-17--------------|
|-4-||-----17------17--|-----17------17--|-----17------17--|-----------------|
|-4-||-----------------|-----------------|-----------------|-----------------|
|---||-----------------|-----------------|-----------------|-----------------|

|---||-----------------|-----------------|
|-4-||-----------------|-----------------|
|-4-||-0-0-0-0-0-0-0-0-|-----------------|
|---||-----------------|-1---------------|

Outro Prt.1
|---||-----------------|-----------------|-----------------|-----------------|
|-4-||-----------------|-----------------|-----------------|-----------------|
|-4-||-3-3-3-3-3-3-3-3-|-5-5-5-5-5-5-5-5-|-0-0-0-0-0-0-0-0-|-----------------|
|---||-----------------|-----------------|-----------------|-1-1-1-1-1-1-1-1-|

|---||-----------------|-----------------|-----------------|-----------------|
|-4-||-----------------|-----------------|-----------------|-----------------|
|-4-||-3-3-3-3-3-3-3-3-|-5-5-5-5-5-5-5-5-|-0-0-0-0-0-0-0-0-|-----------------|
|---||-----------------|-----------------|-----------------|-1-1-1-1-1-1-1-1-|

Outro Prt.2
|---||-----------------|-----------------|-----------------|-----------------|
|-4-||-----------------|-----------------|-----------------|-----------------|
|-4-||-3-3-3-3-3-3-3-3-|-5-5-5-5-5-5-5-5-|-0-0-0-0-0-0-0-0-|-8-8-8-8-8-8-8-8-|
|---||-----------------|-----------------|-----------------|-----------------|

Outro Prt.3
|---||-----------------|-----------------|-----------------|-----------------|
|-4-||-----------------|-----------------|-----------------|-----------------|
|-4-||-3-3-3-3-3-3-3-3-|-5-5-5-5-5-5-5-5-|-0-0-0-0-0-0-0-0-|-8---------------|
|---||-----------------|-----------------|-----------------|-----------------|

**********************************
* OWL BOI (owl__boy@hotmail.com) *
**********************************                    

Comentarios para notas de bajo guitarra (tab) — Anthem (var.29) (Blink 182)

Otras notas para Anthem (var.29) de Blink 182:

Las últimas notas vistas de Blink 182: