Blink 182 - All The Small Things (var.8) Notas de bajo guitarra (tab) descargar gratis o reproducir online

Notas de bajo guitarra (tab) para All The Small Things (var.8) de Blink 182 descargar gratis, leer o reproducir online. Info de archivo: .txt, 6.7 kb, 466 visualizaciones y 0 descargas.

Descargar notas de bajo guitarra (tab) "All The Small Things (var.8)" (Blink 182)

Blink 182 Nombre de grupo
All The Small Things Nombre de canción
Notas de bajo guitarra (tabs) Tipo de nota
6.7 kb Tamaño de archivo
.TXT Tipo de archivo
466 visualizaciones
0 descargas
 
Eres un robot?

All The Small Things (var.8) notas de bajo guitarra (tab) leer y reproducir online

                    Intro
G:|-----|
D:|-----|
A:|-----|
E:|-3-1-|


Main Riff
G:|-----------------|-----------------|-----------------|-----------------|
D:|-----------------|-----------------|-----------------|-----------------|
A:|-3-3-3-3-3-3-3-3-|-3-3-3-3-3-3-3-5-|-----------------|-----------------|
E:|-----------------|-----------------|-3-3-3-3-3-3-3-3-|-3-x-x-x-x-1-1-1-|

Main Riff
G:|-----------------|-----------------|-----------------|-----------------|
D:|-----------------|-----------------|-----------------|-----------------|
A:|-3-3-3-3-3-3-3-3-|-3-3-3-3-3-3-3-5-|-----------------|-----------------|
E:|-----------------|-----------------|-3-3-3-3-3-3-3-3-|-3-x-x-x-x-1-1-1-|

Verse
G:|-----------------|-----------------|-----------------|-----------------|
D:|-----------------|-----------------|-----------------|-----------------|
A:|-3-3-3-3-3-3-3-3-|-----------------|-----------------|-----------------|
E:|-----------------|-3-3-3-3-3-3-3-3-|-1-1-1-1-1-1-1-1-|-3-3-3-3-3-3-3-3-|


Verse
G:|-----------------|-----------------|-----------------|-----------------|
D:|-----------------|-----------------|-----------------|-----------------|
A:|-3-3-3-3-3-3-3-3-|-----------------|-----------------|-----------------|
E:|-----------------|-3-3-3-3-3-3-3-3-|-1-1-1-1-1-1-1-1-|-3-3-3-3-3-3-3-3-|


Verse
G:|-----------------|-----------------|-----------------|-----------------|
D:|-----------------|-----------------|-----------------|-----------------|
A:|-3-3-3-3-3-3-3-3-|-----------------|-----------------|-----------------|
E:|-----------------|-3-3-3-3-3-3-3-3-|-1-1-1-1-1-1-1-1-|-3-3-3-3-3-3-3-3-|


Verse
G:|-----------------|-----------------|-----------------|-----------------|
D:|-----------------|-----------------|-----------------|-----------------|
A:|-3-3-3-3-3-3-3-3-|-----------------|-----------------|-----------------|
E:|-----------------|-3-3-3-3-3-3-3-3-|-1-1-1-1-1-1-1-1-|-3-3-3-3-3-3-3-3-|


Pre-Chorus
G:|-----------------|-----------------|-------------------------|-----------------|
D:|-----------------|-----------------|-------------------------|-----------------|
A:|-3-3-3-3-3-3-3-3-|-3-3-3-3-3-3-3-3-|-10-10-10-10-10-10-10-10-|-8-8-8-8-8-8-8-8-|
E:|-----------------|-----------------|-------------------------|-----------------|

Chorus
G:|-----------------|-----------------|-----------------|-----------------|
D:|-----------------|-----------------|-----------------|-----------------|
A:|-3-3-3-3-3-3-3-3-|-3-3-3-3-3-3-3-3-|-----------------|-----------------|
E:|-----------------|-----------------|-3-3-3-3-3-3-3-3-|-1-1-1-1-1-1-1-1-|


Chorus
G:|-----------------|-----------------|-----------------|-----------------|
D:|-----------------|-----------------|-----------------|-----------------|
A:|-3-3-3-3-3-3-3-3-|-3-3-3-3-3-3-3-3-|-----------------|-----------------|
E:|-----------------|-----------------|-3-3-3-3-3-3-3-3-|-1-1-1-1-1-1-1-1-|


Main Riff
G:|-----------------|-----------------|-----------------|-----------------|
D:|-----------------|-----------------|-----------------|-----------------|
A:|-3-3-3-3-3-3-3-3-|-3-3-3-3-3-3-3-5-|-----------------|-----------------|
E:|-----------------|-----------------|-3-3-3-3-3-3-3-3-|-3-x-x-x-x-1-1-1-|

Main Riff
G:|-----------------|-----------------|-----------------|-----------------|
D:|-----------------|-----------------|-----------------|-----------------|
A:|-3-3-3-3-3-3-3-3-|-3-3-3-3-3-3-3-5-|-----------------|-----------------|
E:|-----------------|-----------------|-3-3-3-3-3-3-3-3-|-3-x-x-x-x-1-1-1-|

Verse
G:|-----------------|-----------------|-----------------|-----------------|
D:|-----------------|-----------------|-----------------|-----------------|
A:|-3-3-3-3-3-3-3-3-|-----------------|-----------------|-----------------|
E:|-----------------|-3-3-3-3-3-3-3-3-|-1-1-1-1-1-1-1-1-|-3-3-3-3-3-3-3-3-|

Verse
G:|-----------------|-----------------|-----------------|-----------------|
D:|-----------------|-----------------|-----------------|-----------------|
A:|-3-3-3-3-3-3-3-3-|-----------------|-----------------|-----------------|
E:|-----------------|-3-3-3-3-3-3-3-3-|-1-1-1-1-1-1-1-1-|-3-3-3-3-3-3-3-3-|


Pre-Chorus
G:|-----------------|-----------------|-------------------------|-----------------|
D:|-----------------|------
-----------|-------------------------|-----------------|
A:|-3-3-3-3-3-3-3-3-|-3-3-3-3-3-3-3-3-|-10-10-10-10-10-10-10-10-|-8-8-8-8-8-8-8-8-|
E:|-----------------|-----------------|-------------------------|-----------------|


Chorus
G:|-----------------|-----------------|-----------------|-----------------|
D:|-----------------|-----------------|-----------------|-----------------|
A:|-3-3-3-3-3-3-3-3-|-3-3-3-3-3-3-3-3-|-----------------|-----------------|
E:|-----------------|-----------------|-3-3-3-3-3-3-3-3-|-1-1-1-1-1-1-1-1-|

Chorus
G:|-----------------|-----------------|-----------------|-----------------|
D:|-----------------|-----------------|-----------------|-----------------|
A:|-3-3-3-3-3-3-3-3-|-3-3-3-3-3-3-3-3-|-----------------|-----------------|
E:|-----------------|-----------------|-3-3-3-3-3-3-3-3-|-1-1-1-1-1-1-1-1-|

Interlude
G:|-------------------|-------------------|-------------------|
D:|-------------------|-------------------|-------------------|
A:|-3-------8---10----|-3-------8---10----|-3-------8---10----|
E:|-------------------|-------------------|-------------------|

Interlude continued
G:|-----------------|-----------------|-----------------|-------------------------|
D:|-----------------|-----------------|-----------------|-------------------------|
A:|-3-3-3-3-3-3-3-3-|-3-3-3-3-3-3-3-3-|-8-8-8-8-8-8-8-8-|-10-10-10-10-10-10-10-10-|
E:|-----------------|-----------------|-----------------|-------------------------|

Chorus
G:|-----------------|-----------------|-----------------|-----------------|
D:|-----------------|-----------------|-----------------|-----------------|
A:|-3-3-3-3-3-3-3-3-|-3-3-3-3-3-3-3-3-|-----------------|-----------------|
E:|-----------------|-----------------|-3-3-3-3-3-3-3-3-|-1-1-1-1-1-1-1-1-|

Chorus
G:|-----------------|-----------------|-----------------|-----------------|
D:|-----------------|-----------------|-----------------|-----------------|
A:|-3-3-3-3-3-3-3-3-|-3-3-3-3-3-3-3-3-|-----------------|-----------------|
E:|-----------------|-----------------|-3-3-3-3-3-3-3-3-|-1-1-1-1-1-1-1-1-|

Outro							 Play Fill here 2nd time through
G:|-----------------|-----------------|-----------------|-----------------|
D:|-----------------|-----------------|-----------------|-----------------|
A:|-3-3-3-3-3-3-3-3-|-3-3-3-3-3-3-3-3-|-----------------|-----------------|
E:|-----------------|-----------------|-3-3-3-3-3-3-3-3-|-x-x-1---x-x-1---|                    

Comentarios para notas de bajo guitarra (tab) — All The Small Things (var.8) (Blink 182)

Otras notas para All The Small Things (var.8) de Blink 182:

Las últimas notas vistas de Blink 182: