Blink 182 - Stay Together For The Kids (var.22) Notas de guitarra (tab) descargar gratis o reproducir online

Notas de guitarra (tab) para Stay Together For The Kids (var.22) de Blink 182 descargar gratis, leer o reproducir online. Info de archivo: .txt, 2.52 kb, 730 visualizaciones y 0 descargas.

Descargar notas de guitarra (tab) "Stay Together For The Kids (var.22)" (Blink 182)

Blink 182 Nombre de grupo
Stay Together For The Kids Nombre de canción
Notas de guitarra (tabs) Tipo de nota
2.52 kb Tamaño de archivo
.TXT Tipo de archivo
730 visualizaciones
0 descargas
 
Eres un robot?

Stay Together For The Kids (var.22) notas de guitarra (tab) leer y reproducir online

                    ---------------------------------------------------------------------------------
		         Blink-182 - Stay Together for the Kids
---------------------------------------------------------------------------------
Standard Tuning


Main Riff/Intro


e|------------------|------------------|
B|------------------|------------------|
G|------------------|------------------|
D|----0---7---0-4-0-|----0---7-0---4-0-|
A|--5---5---5-------|--4---4-----4-----|
E|------------------|------------------|

e|------------------|------------------|
B|------------------|------------------|
G|------------------|------------------|
D|----0---4-0---5-0-|----2---4-5-4-2-0-|
A|--2---2-----2-----|--0---0-----------|
E|------------------|------------------|

Verse 1

	  "It's hard to wake up when the shades have been pulled shut."
e|----------------------------------|----------------------------------|          
B|-------3------3--------3-------3--|-------3-------3-------3-------3--|                    
G|-------2------2--------2-------2--|-------2-------2-------2-------2--|         
D|-0-0-0---0-0-0---0-0-0---0-0-0----|----------------------------------|          
A|----------------------------------|-2-2-2---2-2-2---2-2-2---2-2-2----|          
E|----------------------------------|----------------------------------|

     "This house is haunted, it's so pathetic, it makes no sense at all"
e|----------------------------------|----------------------------------|          
B|-------3------3--------3-------3--|-------5-------5-------5-------5--|                    
G|-------2------2--------2-------2--|-------2-------2-------2-------2--|         
D|----------------------------------|----------------------------------|          
A|-0-0-0---0-0-0---0-0-0---0-0-0----|-2-2-2---2-2-2---2-2-2---2-2-2----|          
E|----------------------------------|----------------------------------|


"I'm ripe with things to say."		"The words rot and fall away."
e|----------------------------------|----------------------------------|          
B|-------3------3--------3-------3--|-------3-------3-------3-------3--|                    
G|-------2------2--------2-------2--|-------2-------2-------2-------2--|         
D|-0-0-0---0-0-0---0-0-0---0-0-0----|----------------------------------|          
A|----------------------------------|-2-2-2---2-2-2---2-2-2---2-2-2----|          
E|----------------------------------|----------------------------------|

"What stupid poem could fix this poem>   	I'd read it every day."
       "they never>                    

Comentarios para notas de guitarra (tab) — Stay Together For The Kids (var.22) (Blink 182)

Otras notas para Stay Together For The Kids (var.22) de Blink 182:

Las últimas notas vistas de Blink 182: