Blink 182 - Anthem (var.136) Notas de guitarra (tab) descargar gratis o reproducir online

Notas de guitarra (tab) para Anthem (var.136) de Blink 182 descargar gratis, leer o reproducir online. Info de archivo: .txt, 3.56 kb, 608 visualizaciones y 0 descargas.

Descargar notas de guitarra (tab) "Anthem (var.136)" (Blink 182)

Blink 182 Nombre de grupo
Anthem Nombre de canción
Notas de guitarra (tabs) Tipo de nota
3.56 kb Tamaño de archivo
.TXT Tipo de archivo
608 visualizaciones
0 descargas
 
Eres un robot?

Anthem (var.136) notas de guitarra (tab) leer y reproducir online

                    #-----------------------------PLEASE NOTE-------------------------------------#
#This file is the author's own work and represents his interpretation of the  #
#song. You may only use this file for private study, scholarship, or research.#
#Remember to view this file in Courier or some other monospaced font.         #
#-----------------------------------------------------------------------------#

Date: Sat, 16 Jun 2001 10:53:57 -0400
From: c m 
Subject: b/blink_182/anthem_part_two.tab

Song: Anthem Part II
Artist: blink-182
Album: Take off Your Pants and Jacket (All three
versions.)
Guitarist: Tom Delonge
Transcriber: Mark Schoeck
(checkmark_chiefs25@yahoo.com)

INTRO:

-4---4---2---2---1---1---2---2---
---2---2---2---2---2---2---2---2-
---------------------------------
---------------------------------
---------------------------------
---------------------------------


-4---4---2---2---1---1---2---2---
---2---2---2---2---2---2---2---2-
---------------------------------
---------------------------------
---------------------------------
---------------------------------

after a few of these, this comes in:

------------------------------
------------------------------
------------------------------
------2/3-----2-----2/3-----2-
-3-3-----3-3---3-3-----3-3----
------------------------------
p.m.|    ---|  ---|    ---|

------------------------------
------------------------------
------------------------------
------2/3------2-----0------0-
-3-3------3-3---3-3---3-3-----
------------------------------
p.m.|     ---|  ---|  ---|

(after the 16th notes on the snare drum, this riff is
played)

-------------------------------------
-3---4---3---------3---4---3---------
------------3--5----------------3--5-
-------------------------------------
-------------------------------------
-------------------------------------

-----------------------------
-3---4---3---------3---4-----
------------3--5-----------3-
-----------------------------
-----------------------------
-----------------------------

VERSES:
bass alone for the first part, then...:

---------
---------
-7-7-7-7-
-7-7-7-7-
-5-5-5-5-
---------

---------------------------------
---------------------------------
---------------------------------
-5-5-5-5-5-5-5-5-5-5-5-5-5-5-5-5-
-3-3-3-3-3-3-3-3-3-3-3-3-3-3-3-3-
---------------------------------
p.m.----------------------------|

-------------------------------------
-------------------------------------
---------------------5-5-5-5-5-5-5-5-
---------------------3-3-3-3-3-3-3-3-
-5-5-5-5-5-5-5-5---------------------
-3-3-3-3-3-3-3-3---------------------
p.m.---------------------------------|

CHORUS:

-------------------------
-------------------------
-------------------------
-4--4-4-4--4-4-5-5--5--5-
-4--4-4-4--4-4-5-5--5--5-
-2--2-2-2--2-2-3-3--3--3-

---------------------------------
---------------------------------
-9-9-9-9-9-9-9-9-7-7-7-7-7-7-7-7-
-9-9-9-9-9-9-9-9-7-7-7-7-7-7-7-7-
-7-7-7-7-7-7-7-7-5-5-5-5-5-5-5-5-
---------------------------------
after this, you play the same riff as the verses,
then:

if we're.....................
--------------------
--------------------
------------------7-
-5-5-5-5-5-5-5-5--7-       you're to blame.
-3-3-3-3-3-3-3-3--5-
--------------------
p.m.------------|

there's the interlude, where tom sings,
"everything has fallen to pieces" a buncha times, and
that's the verse bass part... so this is it. cd's
brand new, so it's all my work. be sure to check out
my tabs for stay together for the kids, and story of a
lonely guy. have fun... email questions.
Visit www.directtabs.com for more tabs.                    

Comentarios para notas de guitarra (tab) — Anthem (var.136) (Blink 182)

Otras notas para Anthem (var.136) de Blink 182:

Las últimas notas vistas de Blink 182: