Blink 182 - Anthem (var.17) Notas de bajo guitarra (tab) descargar gratis o reproducir online

Notas de bajo guitarra (tab) para Anthem (var.17) de Blink 182 descargar gratis, leer o reproducir online. Info de archivo: .txt, 3.31 kb, 669 visualizaciones y 0 descargas.

Descargar notas de bajo guitarra (tab) "Anthem (var.17)" (Blink 182)

Blink 182 Nombre de grupo
Anthem Nombre de canción
Notas de bajo guitarra (tabs) Tipo de nota
3.31 kb Tamaño de archivo
.TXT Tipo de archivo
669 visualizaciones
0 descargas
 
Eres un robot?

Anthem (var.17) notas de bajo guitarra (tab) leer y reproducir online

                    Anthem Pt. 1
Blink 182

G|----------------------------------------------------
D|--------------------------------------------------1-
A|-2-2-2-2-2--2-2-2-2-2--2-2-2-2-2--4-4-4-------------
E|----------------------------------------------------

cont.
G|--------------------------------------------
D|-2-2-2-2-2--4-4-4-4-4--2-2-2-2-2--4-4-4-4-4-
A|--------------------------------------------
E|--------------------------------------------

Pre Chorus 
G|--------------------------------------------
D|--------------------------------------------
A|--------2----------2-4-------2----------2-4-
E|---4-4----4--2-2-------0-0----0--2-2--------

Riff after first pre-chorus
G|---------------------------------------------
D|---------------------------------------------
A|--2-2-2-2-2--2-2-2-2-2--2-2-2-2-2------------
E|-------------------------------------------0-

2nd and all other verses
G|-------------------------------------------------------------------
D|------------------------------1-1-2-2-2-2-4-4-4-4-2-2-2-2-4-4-4-4--
A|--2-2-2-2-2-2-2-2-2-2-2-2-4-4--------------------------------------
E|-------------------------------------------------------------------

Chorus 
G|-------------------------------------------------------------------
D|------------------2-2-2-2-2-2-2-2----------------------------------
A|--2-2-2-2-2-2-2-2-----------------2-2-2-2-2-2-2-2------------------
E|--------------------------------------------------2-2-2-2-2-2-2-2--

cont.
G|---------------------------------------------------------
D|-----------------2-2-2-2-2-2-----------------------------
A|-X-X-X-2-2-2-2-2-------------2-2-2-2-2-2-----------------
E|-----------------------------------------2-2-2-2-2-2-2-2-

 "I time bomb"
G|-------------------------------------------------------------------
D|------------------2-2-2-2-2-2-2-2----------------------------------
A|--2-2-2-2-2-2-2-2--------------------------------------------------
E|----------------------------------4-4-4-4-4-4-4-4-2-2-2-2-2-2-2-2--


G|-------------------------------------------------------------------
D|-------------------------------------------------------------------
A|--2-2-2-2-2-2-2-2--------------------------------------------------
E|-------------------0-0-0-0-0-0-0-0-2-2-2-2-2-2-2-2-0-0-0-0-0-0-0-0-

Bass solo
G|-------------------------------------------------
D|-----1-----1-----4-----4-----1-----1-----4-----4-
A|-2-2---2-2---2-2---2-2---2-2---2-2---2-2---2-2---
E|-------------------------------------------------

cont.
G|---------------------------------------------------
D|---------------------------------------------------
A|-------2-----2-----4-----4-----2-----2-----4-----4-
E|--0-0----0-0---2-2---2-2---0-0---0-0---2-2---2-2---                    

Comentarios para notas de bajo guitarra (tab) — Anthem (var.17) (Blink 182)

Otras notas para Anthem (var.17) de Blink 182:

Las últimas notas vistas de Blink 182: