Blink 182 - Anthem (var.6) Notas de bajo guitarra (tab) descargar gratis o reproducir online

Notas de bajo guitarra (tab) para Anthem (var.6) de Blink 182 descargar gratis, leer o reproducir online. Info de archivo: .txt, 1.65 kb, 708 visualizaciones y 0 descargas.

Descargar notas de bajo guitarra (tab) "Anthem (var.6)" (Blink 182)

Blink 182 Nombre de grupo
Anthem Nombre de canción
Notas de bajo guitarra (tabs) Tipo de nota
1.65 kb Tamaño de archivo
.TXT Tipo de archivo
708 visualizaciones
0 descargas
 
Eres un robot?

Anthem (var.6) notas de bajo guitarra (tab) leer y reproducir online

                    Date: Tue, 12 Nov 2002 17:20:36 EST
From: Whyzboytvh@aol.com
Subject: b/blink_182/anthem_part_2.btab

Artist: Blink 182
Song: Anthem Part 2

Intro/ outro

G------------------------------------------------------------------------
D------------------------------------------------------------------------
A---3--5---0----8-----------------------------------------------------
E------------------------------------------------------------------------
repeat six times then

Riff
G-------------------------------------------------------------------------
D-------------------------------------------------------------------------
A---3---3-----0--0-----------------------------------------------------
E-----------------------1----1--------------------------------------------
3 times then

Verse/ Bridge
G---------------------------------------------------------------------------
D---------------------------------------------------------------------------
A-----3-------------0------------------------------------------------------
E----------------------------------1-----------------------------------------
Four times





order:
Intro
Riff
Verse 2 times
Verse 1 time
Bridge
outro


if i messed something up,
email me at stratsg@jimmyeatworld.net                    

Comentarios para notas de bajo guitarra (tab) — Anthem (var.6) (Blink 182)

Otras notas para Anthem (var.6) de Blink 182:

Las últimas notas vistas de Blink 182: