Blink 182 - Anthem (var.15) Notas de guitarra (tab) descargar gratis o reproducir online

Notas de guitarra (tab) para Anthem (var.15) de Blink 182 descargar gratis, leer o reproducir online. Info de archivo: .txt, 4.41 kb, 894 visualizaciones y 0 descargas.

Descargar notas de guitarra (tab) "Anthem (var.15)" (Blink 182)

Blink 182 Nombre de grupo
Anthem Nombre de canción
Notas de guitarra (tabs) Tipo de nota
4.41 kb Tamaño de archivo
.TXT Tipo de archivo
894 visualizaciones
0 descargas
 
Eres un robot?

Anthem (var.15) notas de guitarra (tab) leer y reproducir online

                    Date: Sat, 25 Jan 2003 03:13:20 +0000
From: tom dougan 
Subject: b/blink_182/anthem_part_2.tab

Artist: Blink 182
Song: Anthem Part 2
Album:Take of your Pants and Jacket

Tabbed By Todd Rutkowski

The tab they had up was a little off. I think this sounds much better.
Enjoy.

Riff 1
e|-3---3---1---1---0---0---1---1------------------------------------
B|---1---1---1---1---1---1---1---1----------------------------------
G|------------------------------------------------------------------
D|------------------------------------------------------------------
A|------------------------------------------------------------------
E|------------------------------------------------------------------

Riff 2
e|------------------------------------------------------------------
B|------------------------------------------------------------------
G|------------------------------------------------------------------
D|-----2/3---3-----2/3---3------2/3---3-----0-----0-----------------
A|-3-3-----3---3-3-----3---3-3------3---3-3---3-3-------------------
E|------------------------------------------------------------------

Riff 3
e|------------------------------------------------------------------
B|------------------------------------------------------------------
G|------------------------------------------------------------------
D|-2-3-2-----2-3-2-----2-3-2-----2-3--------------------------------
A|-------3-5-------3-5-------3-5-----3------------------------------
E|------------------------------------------------------------------

Verse 1a
e|------------------------------------------------------------------
B|------------------------------------------------------------------
G|-5--5555----------------------------------------------------------
D|-5--5555----------------------------------------------------------
A|-3--3333----------------------------------------------------------
E|------------------------------------------------------------------

Verse 1b
e|------------------------------------------------------------------
B|------------------------------------------------------------------
G|-5555555555555555-------------------------------------------------
D|-5555555555555555-77777777-33333333-------------------------------
A|-3333333333333333-77777777-33333333-------------------------------
E|------------------55555555-11111111-------------------------------

Chorus 1
e|------------------------------------------------------------------
B|------------------------------------------------------------------
G|-99999999-1010101010101010-55555555-------------------------------
D|-99999999-1010101010101010-55555555-55555555----------------------
A|-77777777--8-8-8-8-8-8-8-8-33333333-55555555----------------------
E|------------------------------------33333333----------------------

Chorus 2
e|------------------------------------------------------------------
B|------------------------------------------------------------------
G|----------1010101010101010-55555555-------------------10----------
D|-77777777-1010101010101010-55555555-55555555-77777777-10----------
A|-77777777--8-8-8-8-8-8-8-8-33333333-55555555-77777777--8----------
E|-55555555---------------------------33333333-55555555-------------
PM ********  * * * * * * * * ******** ******** ********  *

That was fun. Heres the order to play it all in.
Blink only has one guitarist but he recorded himself twice.
You can drop the secong guitar and it still sounds good. Thats what Tom
does live.

Guitar 1     |  Guitar
Riff 1     x 4 |
Riff 2     x 4 | Riff 1 x 4
Riff 3     x 1 |
Verse 1    x 1 |
Verse 2    x 2 |
Verse 1    x 1 |
Verse 2    x 2 |
Chorus 1   x 1 |
Chorus 2   x 2 |
Verse 1    x 1 |
Verse 2    x 2 |
Chorus 1   x 2 |
Chorus 2   x 1 |
Chorus 1   x 2 |
Chorus 2   x 1 |
Riff 2     x 2 |
Riff 2     x 2 | Riff 1 x 2

This is all my work. Im pretty sure its all right for that reason.
for questions comments flames
or praise email me at
exeatticus@hotmail.com





_________________________________________________________________                    

Comentarios para notas de guitarra (tab) — Anthem (var.15) (Blink 182)

Otras notas para Anthem (var.15) de Blink 182:

Las últimas notas vistas de Blink 182: