Blink 182 - All The Small Things (var.53) Notas de guitarra (tab) descargar gratis o reproducir online

Notas de guitarra (tab) para All The Small Things (var.53) de Blink 182 descargar gratis, leer o reproducir online. Info de archivo: .txt, 1.32 kb, 450 visualizaciones y 0 descargas.

Descargar notas de guitarra (tab) "All The Small Things (var.53)" (Blink 182)

Blink 182 Nombre de grupo
All The Small Things Nombre de canción
Notas de guitarra (tabs) Tipo de nota
1.32 kb Tamaño de archivo
.TXT Tipo de archivo
450 visualizaciones
0 descargas
 
Eres un robot?

All The Small Things (var.53) notas de guitarra (tab) leer y reproducir online

                    Song: All the small things
Composers: Blink 182


This is a great tune by blink 182,
its standard tuning enjoy


e|-----------------------------------------------------------
b|-----------------------------------------------------------
g|------------5555555---10 10-10-10-10-10-10-----------------
d|-5-3--------5555555---10 10-10-10-10-10-10--5555555--------
a|-5-3--------3333333---8-- 8- 8 -8--8--8- 8--5555555--------
e|-3-1--------------------------------------  3333333--------

|-----------------------
|-----------------------
|-----------------------
|-3-x-x-x-33------------
|-3-x-x-x-33------------
|-1-x-x-x-11------------

That was the intro repeat this 2 times

Do this part with light palming

All the small things...
|---------------------------------------
|---------------------------------------
|----5555555-----------------------------
|----5555555--5555555--3333333-5555555---
|----3333333--5555555--3333333-5555555---
|-------------3333333--1111111-3333333---

Repeat this 4x

Say it ant so...

|-------
|-------
|----5--
|----5--  <-----Let this ring
|----3--
|-------

Na,na, na....

|-----------------------------
|-----------------------------
|---5555555555-----------------
|---5555555555--555555-33333---
|---3333333333--555555-33333---
|---------------333333-11111---                    

Comentarios para notas de guitarra (tab) — All The Small Things (var.53) (Blink 182)

Otras notas para All The Small Things (var.53) de Blink 182:

Las últimas notas vistas de Blink 182: